?

Log in

No account? Create an account

« previous entry | next entry »
Sun, Nov. 29th, 2009 | 11:19 pm  ‏‏␦ sleepy ♬ Watching the detectives - ELVIS COSTELLO slavezombie


I can't read music, so I converted page one to tabs
slavezombie
       Am                                              
E: --------------0-|----------------|----------------|----------------
B: ------------0-1-|----------------|----------------|----------------
G: --------0-2---2-|-5-4-5----------|----------------|----------------
D: ----2-3-------2-|-3-----3--------|----------------|----------------
A: ----0---------0-|----------------|---3-3----------|---------------
E: ----------------|----------------|-1-----1-3------|----------------

     Am                                 F                             
E: |--------------------------------|---1-1--1--------------------------
B: |-----3---1---0---0---0-----0---1|---1-1--3---1---0---0---1----------
G: |-------------2---------2-------2|---2-2--------------------2--------
D: |--------------------------------|---3-3--------------------3--------
A: |-0------------------------------|---3-3-----------------------------
E: |--------------------------------|---1-1------------------------1---3
      Nice girls, not one with a defect, cellophane shrink-wrapped, so correct.
                                       
     Am                       F                                       
E: |------------------------|-1---------------------|-----------------
B: |---3---1---0---0---0-1--|-1---------------------|-----------------
G: |-----------------2---2-2|-2---------------------|-----------------
D: |------------------------|-3-------3-3-----3-3---|-----3-3---------
A: |-0----------------------|-3---------------------|-----------------
E: |------------------------|-1---1-------1---------|-1-------1---3---
    Red dogs under illegal legs

     Am
E: |---------------------------1------------|
B: |-----3-1---0---0---0---0---1------------|
G: |-----------------2---2-----2---2.-------|
D: |---------------------------3------------|
A: |-0-------------------------3------------|
E: |---------------------------1------------|
    She looks so good that he gets down and begs
Tags:


LinkCommentFile under memories

Comments {0}