?

Log in

No account? Create an account

« previous entry | next entry »
Wed, Jul. 16th, 2008 | 01:54 pm   Nico - THE CULT slavezombie


Guitar chords
slavezombie
books on guitar lessons are helpful, but far too advanced for me. I have a Metallica book and various tabs printed off the internet. However, those riffs and songs I try to teach myself lack one important thing. Although they are helpful in practicing fingering frets and stroking strings, I still can't grasp the concept of chords. I'm hoping that I will gain some familiarity after I teach myself Michelle mabelle by THE BEATLES. This is a song I've always wanted to memorize the lyrics to, but quickly lost interest. Now I'm hoping to memorize the fret positions for the various chords used in the song.

Michelle mabelle

     D       Gm       C                B°7             A     B°7  A
E||--2-------3-----|--x-------------|--x-------------|-------x--------|
B||--3-------3-----|--1-------------|--3-------------|-2-----3----2---|
G||--2-------3-----|----------------|--1-------------|-2-----1----2---|
D||----------5-----|--2-------------|--3-------------|-2-----3----2---|
A||--x-------5-----|--3-------------|--2-------------|-------2--------|
E||--x-------3-----|--x-------------|--x-------------|-x-----x----x---|
Michelle mabelle. These are words that go together well, my Michelle

D Gm C B°7 A B°7
E||--2-------3-----|-x--------------|--x-------------|---------x------|
B||--3-------3-----|-1--------------|--3-------------|-2-------3------|
G||--2-------3-----|----------------|--1-------------|-2-------1------|
D||----------5-----|-2--------------|--3-------------|-2-------3------|
A||--x-------5-----|-3--------------|--2-------------|---------2------|
E||--x-------3-----|-x--------------|--x-------------|-x-------x------|
Michelle mabelle sont les mots qui vont tres bien ensemble, tres bien

A Dm Cm F7 Bb
E||----------1-----|----------------|----------x-----|-----------1--x-|
B||-2--------3-----|----------------|----------3-----|-----------4--3-|
G||-2--------2-----|----------------|----------3-----|-----------2--3-|
D||-2--------------|----------------|----------3-----|-----------1--3-|
A||----------x-----|----------------|----------1-----|-----------3--1-|
E||-x--------x-----|----------------|----------x-----|-----------1--x-|
ensemble. I love you, I love you, I love you. That’s all I want to say

A Gm Dm Db add5 Dm7 Dm6 Bb6
E||-------------3--|--------1------x|----x--------1--|-----1----------|
B||-2-----------3--|--------3------2|----3-----------|-----3----------|
G||-2-----------3--|--------2------2|----5--------2--|----------------|
D||-2-----------5--|---------------3|----3-----------|-----3----------|
A||-------------5--|--------x------4|----5--------x--|-----1----------|
E||-x-----------3--|--------x------x|----x--------x--|-----x----------|
Until I find a way. I will say the only words I know that you’ll under-
A D Gm C B°7 A B°7
E||-------2-------3|------x---------|-----x----------|--------------x-|
B||-2-----3-------3|------1---------|-----3----------|----2---------3-|
G||-2-----2-------3|----------------|-----1----------|----2---------1-|
D||-2-------------5|------2---------|-----3----------|----2---------3-|
A||-------x-------5|------3---------|-----2----------|--------------2-|
E||-x-----x-------3|------x---------|-----x----------|----x---------x-|
stand. Michelle, mabell sont les mots qui vont tres bien ensemble, tres

A Dm Cm F7 Bb A
E||--------------1-|----------------|--------x---------|-----1---x----|
B||-----2--------3-|----------------|--------1---------|-----4---3---2|
G||-----2--------2-|----------------|------------------|-----2---3---2|
D||-----2----------|----------------|--------1---------|-----1---3---2|
A||--------------x-|----------------|--------3---------|-----3---1----|
E||-----x--------x-|----------------|--------x---------|-----1---x---x|
bien ensemble I need to I need to I need to, I need to make you see. Oh

Gm Dm Db add5 Dm7 Dm6 Bb6 A
E||--------------3-|----1-----x-----|--x-----1-------|-1--------------|
B||--------------3-|----3-----2-----|--3-------------|-3-----------2--|
G||--------------3-|----2-----2-----|--5-----2-------|-------------2--|
D||--------------5-|----------3-----|--3-------------|-3-----------2--|
A||--------------5-|----x-----4-----|--5-----x-------|-1--------------|
E||--------------3-|----x-----x-----|--x-----x-------|-x-----------x--|
what you mean to me. Until I do, I’m hoping you will know what I mean.

D Gm C B°7 A B°7
E||--2-------3-----|x---------------|-x--------------|--------x-------|
B||--3-------3-----|1---------------|-3--------------|-2------3-------|
G||--2-------3-----|----------------|-1--------------|-2------1-------|
D||----------5-----|2---------------|-3--------------|-2------3-------|
A||--x-------5-----|3---------------|-2--------------|--------2-------|
E||--x-------3-----|x---------------|-x--------------|-x------x-------|
Michelle, mabelle sont les mots qui vont tres bien ensemble, tres bien
A B°7 Dm Gm7 A
E||---------------x|------------1---|------------1---|----------------|
B||-2-------------3|------------3---|------------3---|------2---------|
G||-2-------------3|------------2---|------------3---|------2---------|
D||-2-------------3|----------------|------------5---|------2---------|
A||---------------1|------------x---|------------x---|----------------|
E||-x-------------x|------------x---|------------x---|------x---------|
ensemble, I will say the only words I know that you’ll understand,

D Gm D
E||---1-------3----|---1------------|----------------|----------------|
B||---3-------3----|---3------------|----------------|----------------|
G||---2-------3----|---2------------|----------------|----------------|
D||-----------5----|----------------|----------------|----------------|
A||---x-------5----|---x------------|----------------|----------------|
E||---x-------3----|---x------------|----------------|----------------|
my Michelle.
</html>
Tags:


LinkCommentFile under memories

Comments {7}

For Non Blondes aka U-nIn-9-sIx-6

webſite

from: uninesix
date: Wed, Jul. 16, 2008 05:32 pm (UTC)
Link

I love that song.

Reply | Thread