?

Log in

No account? Create an account

Wed, Jul. 16th, 2008 | 01:54 pm   Nico - THE CULT slavezombie


Guitar chords
slavezombie
books on guitar lessons are helpful, but far too advanced for me. I have a Metallica book and various tabs printed off the internet. However, those riffs and songs I try to teach myself lack one important thing. Although they are helpful in practicing fingering frets and stroking strings, I still can't grasp the concept of chords. I'm hoping that I will gain some familiarity after I teach myself Michelle mabelle by THE BEATLES. This is a song I've always wanted to memorize the lyrics to, but quickly lost interest. Now I'm hoping to memorize the fret positions for the various chords used in the song.

Michelle mabelle

     D       Gm       C                B°7             A     B°7  A
E||--2-------3-----|--x-------------|--x-------------|-------x--------|
B||--3-------3-----|--1-------------|--3-------------|-2-----3----2---|
G||--2-------3-----|----------------|--1-------------|-2-----1----2---|
D||----------5-----|--2-------------|--3-------------|-2-----3----2---|
A||--x-------5-----|--3-------------|--2-------------|-------2--------|
E||--x-------3-----|--x-------------|--x-------------|-x-----x----x---|
Michelle mabelle. These are words that go together well, my Michelle

D Gm C B°7 A B°7
E||--2-------3-----|-x--------------|--x-------------|---------x------|
B||--3-------3-----|-1--------------|--3-------------|-2-------3------|
G||--2-------3-----|----------------|--1-------------|-2-------1------|
D||----------5-----|-2--------------|--3-------------|-2-------3------|
A||--x-------5-----|-3--------------|--2-------------|---------2------|
E||--x-------3-----|-x--------------|--x-------------|-x-------x------|
Michelle mabelle sont les mots qui vont tres bien ensemble, tres bien

A Dm Cm F7 Bb
E||----------1-----|----------------|----------x-----|-----------1--x-|
B||-2--------3-----|----------------|----------3-----|-----------4--3-|
G||-2--------2-----|----------------|----------3-----|-----------2--3-|
D||-2--------------|----------------|----------3-----|-----------1--3-|
A||----------x-----|----------------|----------1-----|-----------3--1-|
E||-x--------x-----|----------------|----------x-----|-----------1--x-|
ensemble. I love you, I love you, I love you. That’s all I want to say

A Gm Dm Db add5 Dm7 Dm6 Bb6
E||-------------3--|--------1------x|----x--------1--|-----1----------|
B||-2-----------3--|--------3------2|----3-----------|-----3----------|
G||-2-----------3--|--------2------2|----5--------2--|----------------|
D||-2-----------5--|---------------3|----3-----------|-----3----------|
A||-------------5--|--------x------4|----5--------x--|-----1----------|
E||-x-----------3--|--------x------x|----x--------x--|-----x----------|
Until I find a way. I will say the only words I know that you’ll under-
The rest of the songCollapse )
Tags:


LinkComment {7}File under memories

Wed, Jul. 16th, 2008 | 06:02 pm  slavezombie


wordle.net
slavezombie
Today's blanket sin
illustration
wordle-76534329@N00
THUMBNAIL
Finally got my wordle.net thing going. It took a good 2-sum hours to download the updates to the software running on my Macbook—Java and stuff—and you know I've gotta see how Langreiter's touchgraph fairs with the upgraded software. I always liked that idea of a tree. Oooh, I'm gonna check out their lj tree.

This just in… breaking news. Touchgraph.com no longer supports livejournal. They switched over to myspace. Boo. Although I have a myspace account, I never use it. I have ONLY because it's a requirement for viewing pictures and profiles of some myspace users.



LinkCommentFile under memories